ISO-10303-21;
HEADER;
FILE_DESCRIPTION(('CATIA V5 STEP Exchange'),'2;1');

FILE_NAME('C:\\Users\\admin\\Desktop\\AEGT212.stp','2018-08-02T03:00:15+00:00',('none'),('none'),'CATIA Version 5 Release 21 GA (IN-10)','CATIA V5 STEP AP203','none');

FILE_SCHEMA(('CONFIG_CONTROL_DESIGN'));

ENDSEC;
/* file written by CATIA V5R21 */
DATA;
#5=PRODUCT('AEGT212','','',(#2)) ;
#1=APPLICATION_CONTEXT('configuration controlled 3D design of mechanical parts and assemblies') ;
#14=PRODUCT_DEFINITION('',' ',#6,#3) ;
#16=SECURITY_CLASSIFICATION(' ',' ',#15) ;
#15=SECURITY_CLASSIFICATION_LEVEL('unclassified') ;
#47=CARTESIAN_POINT(' ',(0.,0.,0.)) ;
#52=CARTESIAN_POINT('Axis2P3D Location',(0.,0.,0.)) ;
#57=CARTESIAN_POINT('Line Origine',(2.25,0.,0.)) ;
#61=CARTESIAN_POINT('Vertex',(2.25,0.,4.)) ;
#63=CARTESIAN_POINT('Vertex',(2.25,0.,-4.)) ;
#66=CARTESIAN_POINT('Axis2P3D Location',(0.,0.,4.)) ;
#70=CARTESIAN_POINT('Vertex',(-2.25,2.7553642961E-016,4.)) ;
#73=CARTESIAN_POINT('Line Origine',(-2.25,2.7553642961E-016,0.)) ;
#77=CARTESIAN_POINT('Vertex',(-2.25,2.7553642961E-016,-4.)) ;
#80=CARTESIAN_POINT('Axis2P3D Location',(0.,0.,-4.)) ;
#92=CARTESIAN_POINT('Axis2P3D Location',(0.,0.,4.)) ;
#97=CARTESIAN_POINT('Axis2P3D Location',(0.,0.,-4.)) ;
#109=CARTESIAN_POINT('Axis2P3D Location',(0.,0.,4.)) ;
#114=CARTESIAN_POINT('Axis2P3D Location',(-2.23255531843E-016,-5.29795842167E-017,4.)) ;
#118=CARTESIAN_POINT('Vertex',(3.5,2.19842043706E-015,4.)) ;
#120=CARTESIAN_POINT('Vertex',(-3.5,-1.17867959485E-015,4.)) ;
#123=CARTESIAN_POINT('Axis2P3D Location',(-2.23255531843E-016,-5.29795842167E-017,4.)) ;
#137=CARTESIAN_POINT('Axis2P3D Location',(4.16333634234E-015,-2.52943462122E-016,7.5)) ;
#143=CARTESIAN_POINT('Control Point',(4.,-3.99680288865E-015,3.5)) ;
#144=CARTESIAN_POINT('Control Point',(4.,-0.606288633372,3.5)) ;
#145=CARTESIAN_POINT('Control Point',(4.00000236621,-1.20765666951,3.38993723261)) ;
#146=CARTESIAN_POINT('Control Point',(3.99999377776,-1.88821379859,3.14178767585)) ;
#147=CARTESIAN_POINT('Control Point',(4.,-2.63557155763,2.7819882816)) ;
#148=CARTESIAN_POINT('Control Point',(4.,-3.77491721764,2.)) ;
#149=CARTESIAN_POINT('Vertex',(4.,4.23903336675E-016,3.5)) ;
#151=CARTESIAN_POINT('Vertex',(4.,-3.77491721764,2.)) ;
#154=CARTESIAN_POINT('Line Origine',(4.5,-4.67329139161E-015,3.)) ;
#159=CARTESIAN_POINT('Line Origine',(-4.5,3.98644820046E-015,3.)) ;
#163=CARTESIAN_POINT('Vertex',(-4.,3.1745636738E-015,3.5)) ;
#167=CARTESIAN_POINT('Control Point',(-4.,3.5527136788E-015,3.5)) ;
#168=CARTESIAN_POINT('Control Point',(-4.,-0.606288633237,3.5)) ;
#169=CARTESIAN_POINT('Control Point',(-4.0000023662,-1.20765667027,3.38993723252)) ;
#170=CARTESIAN_POINT('Control Point',(-3.99999377776,-1.88821379869,3.14178767572)) ;
#171=CARTESIAN_POINT('Control Point',(-4.,-2.63557155788,2.78198828143)) ;
#172=CARTESIAN_POINT('Control Point',(-4.,-3.77491721764,2.)) ;
#173=CARTESIAN_POINT('Vertex',(-4.,-3.77491721764,2.)) ;
#176=CARTESIAN_POINT('Axis2P3D Location',(-1.33226762955E-015,-2.6559919213E-016,2.)) ;
#190=CARTESIAN_POINT('Axis2P3D Location',(1.44328993201E-015,1.55431223448E-015,7.5)) ;
#196=CARTESIAN_POINT('Control Point',(-4.,1.33226762955E-015,3.5)) ;
#197=CARTESIAN_POINT('Control Point',(-4.,0.606288633333,3.5)) ;
#198=CARTESIAN_POINT('Control Point',(-4.0000023662,1.2076566696,3.3899372326)) ;
#199=CARTESIAN_POINT('Control Point',(-3.99999377776,1.88821379853,3.14178767588)) ;
#200=CARTESIAN_POINT('Control Point',(-4.,2.6355715577,2.78198828155)) ;
#201=CARTESIAN_POINT('Control Point',(-4.,3.77491721764,2.)) ;
#202=CARTESIAN_POINT('Vertex',(-4.,3.77491721764,2.)) ;
#206=CARTESIAN_POINT('Control Point',(4.,6.66133814775E-016,3.5)) ;
#207=CARTESIAN_POINT('Control Point',(4.,0.606288633309,3.5)) ;
#208=CARTESIAN_POINT('Control Point',(4.0000023662,1.20765666981,3.38993723258)) ;
#209=CARTESIAN_POINT('Control Point',(3.99999377777,1.88821379861,3.14178767581)) ;
#210=CARTESIAN_POINT('Control Point',(4.,2.63557155775,2.78198828152)) ;
#211=CARTESIAN_POINT('Control Point',(4.,3.77491721764,2.)) ;
#212=CARTESIAN_POINT('Vertex',(4.,3.77491721764,2.)) ;
#215=CARTESIAN_POINT('Axis2P3D Location',(2.22044604925E-016,-8.881784197E-016,2.)) ;
#229=CARTESIAN_POINT('Axis2P3D Location',(0.,0.,0.)) ;
#234=CARTESIAN_POINT('Line Origine',(4.,-3.77491721764,0.)) ;
#238=CARTESIAN_POINT('Vertex',(4.,-3.77491721764,-4.)) ;
#241=CARTESIAN_POINT('Line Origine',(-4.,-3.77491721764,0.)) ;
#245=CARTESIAN_POINT('Vertex',(-4.,-3.77491721764,-4.)) ;
#248=CARTESIAN_POINT('Axis2P3D Location',(0.,0.,-4.)) ;
#260=CARTESIAN_POINT('Line Origine',(-4.,3.77491721764,0.)) ;
#264=CARTESIAN_POINT('Vertex',(-4.,3.77491721764,-4.)) ;
#267=CARTESIAN_POINT('Line Origine',(4.,3.77491721764,0.)) ;
#271=CARTESIAN_POINT('Vertex',(4.,3.77491721764,-4.)) ;
#274=CARTESIAN_POINT('Axis2P3D Location',(0.,0.,-4.)) ;
#286=CARTESIAN_POINT('Axis2P3D Location',(0.,0.,-4.)) ;
#291=CARTESIAN_POINT('Line Origine',(4.,0.,-4.)) ;
#296=CARTESIAN_POINT('Line Origine',(-4.,-4.4408920985E-016,-4.)) ;
#312=CARTESIAN_POINT('Axis2P3D Location',(-4.,-8.59255981445,4.)) ;
#325=CARTESIAN_POINT('Axis2P3D Location',(4.,7.9779343605,4.)) ;
#342=CARTESIAN_POINT('Axis2P3D Location',(0.,0.,-4.)) ;
#347=CARTESIAN_POINT('Line Origine',(2.06511638498,0.5,-4.)) ;
#351=CARTESIAN_POINT('Vertex',(2.19374109685,0.5,-4.)) ;
#353=CARTESIAN_POINT('Vertex',(1.9364916731,0.5,-4.)) ;
#356=CARTESIAN_POINT('Axis2P3D Location',(0.,0.,-4.)) ;
#360=CARTESIAN_POINT('Vertex',(-2.,2.44921270764E-016,-4.)) ;
#363=CARTESIAN_POINT('Axis2P3D Location',(0.,0.,-4.)) ;
#367=CARTESIAN_POINT('Vertex',(1.9364916731,-0.5,-4.)) ;
#370=CARTESIAN_POINT('Line Origine',(2.06511638498,-0.5,-4.)) ;
#374=CARTESIAN_POINT('Vertex',(2.19374109685,-0.5,-4.)) ;
#377=CARTESIAN_POINT('Axis2P3D Location',(0.,0.,-4.)) ;
#381=CARTESIAN_POINT('Vertex',(-2.25,2.7553642961E-016,-4.)) ;
#384=CARTESIAN_POINT('Axis2P3D Location',(0.,0.,-4.)) ;
#398=CARTESIAN_POINT('Axis2P3D Location',(0.,0.,3.)) ;
#403=CARTESIAN_POINT('Line Origine',(-2.25,2.7553642961E-016,3.)) ;
#407=CARTESIAN_POINT('Vertex',(-2.25,2.7553642961E-016,10.)) ;
#410=CARTESIAN_POINT('Axis2P3D Location',(0.,0.,10.)) ;
#414=CARTESIAN_POINT('Vertex',(2.19374109685,0.5,10.)) ;
#417=CARTESIAN_POINT('Line Origine',(2.19374109685,0.5,3.)) ;
#429=CARTESIAN_POINT('Axis2P3D Location',(0.,0.,10.)) ;
#433=CARTESIAN_POINT('Vertex',(2.19374109685,-0.5,10.)) ;
#436=CARTESIAN_POINT('Line Origine',(2.19374109685,-0.5,3.)) ;
#448=CARTESIAN_POINT('Axis2P3D Location',(0.,0.,3.)) ;
#453=CARTESIAN_POINT('Line Origine',(1.9364916731,-0.5,3.)) ;
#457=CARTESIAN_POINT('Vertex',(1.9364916731,-0.5,10.)) ;
#460=CARTESIAN_POINT('Line Origine',(-2.,2.44921270764E-016,3.)) ;
#464=CARTESIAN_POINT('Vertex',(-2.,2.44921270764E-016,10.)) ;
#467=CARTESIAN_POINT('Axis2P3D Location',(0.,0.,10.)) ;
#479=CARTESIAN_POINT('Line Origine',(1.9364916731,0.5,3.)) ;
#483=CARTESIAN_POINT('Vertex',(1.9364916731,0.5,10.)) ;
#486=CARTESIAN_POINT('Axis2P3D Location',(0.,0.,10.)) ;
#498=CARTESIAN_POINT('Axis2P3D Location',(0.,0.,10.)) ;
#503=CARTESIAN_POINT('Line Origine',(2.06511638498,-0.5,10.)) ;
#508=CARTESIAN_POINT('Line Origine',(2.06511638498,0.5,10.)) ;
#522=CARTESIAN_POINT('Axis2P3D Location',(4.,-0.5,11.2101097107)) ;
#534=CARTESIAN_POINT('Axis2P3D Location',(4.,0.5,-9.44923686981)) ;
#53=DIRECTION('Axis2P3D Direction',(0.,0.,1.)) ;
#54=DIRECTION('Axis2P3D XDirection',(1.,0.,0.)) ;
#58=DIRECTION('Vector Direction',(0.,0.,1.)) ;
#67=DIRECTION('Axis2P3D Direction',(0.,0.,1.)) ;
#74=DIRECTION('Vector Direction',(0.,0.,1.)) ;
#81=DIRECTION('Axis2P3D Direction',(0.,0.,1.)) ;
#93=DIRECTION('Axis2P3D Direction',(0.,0.,1.)) ;
#98=DIRECTION('Axis2P3D Direction',(0.,0.,1.)) ;
#110=DIRECTION('Axis2P3D Direction',(0.,0.,1.)) ;
#111=DIRECTION('Axis2P3D XDirection',(1.,0.,0.)) ;
#115=DIRECTION('Axis2P3D Direction',(0.,0.,1.)) ;
#124=DIRECTION('Axis2P3D Direction',(0.,0.,1.)) ;
#138=DIRECTION('Axis2P3D Direction',(-9.99200722163E-016,-2.30104181972E-018,-1.)) ;
#139=DIRECTION('Axis2P3D XDirection',(-0.5,0.866025403784,5.26835606386E-016)) ;
#155=DIRECTION('Vector Direction',(0.707106781187,-7.86673311616E-016,-0.707106781187)) ;
#160=DIRECTION('Vector Direction',(-0.707106781187,6.26409901199E-016,-0.707106781187)) ;
#177=DIRECTION('Axis2P3D Direction',(7.50396921958E-016,4.33241864891E-016,1.)) ;
#191=DIRECTION('Axis2P3D Direction',(-2.22044604925E-016,-4.4408920985E-016,-1.)) ;
#192=DIRECTION('Axis2P3D XDirection',(1.,1.614869854E-016,-2.63417803193E-016)) ;
#216=DIRECTION('Axis2P3D Direction',(-7.17146277474E-032,4.4408920985E-016,1.)) ;
#230=DIRECTION('Axis2P3D Direction',(0.,0.,1.)) ;
#231=DIRECTION('Axis2P3D XDirection',(1.,0.,0.)) ;
#235=DIRECTION('Vector Direction',(0.,0.,1.)) ;
#242=DIRECTION('Vector Direction',(0.,0.,1.)) ;
#249=DIRECTION('Axis2P3D Direction',(0.,0.,1.)) ;
#261=DIRECTION('Vector Direction',(0.,0.,1.)) ;
#268=DIRECTION('Vector Direction',(0.,0.,1.)) ;
#275=DIRECTION('Axis2P3D Direction',(0.,0.,1.)) ;
#287=DIRECTION('Axis2P3D Direction',(0.,0.,1.)) ;
#288=DIRECTION('Axis2P3D XDirection',(1.,0.,0.)) ;
#292=DIRECTION('Vector Direction',(0.,-1.,0.)) ;
#297=DIRECTION('Vector Direction',(0.,1.,0.)) ;
#313=DIRECTION('Axis2P3D Direction',(-1.,0.,0.)) ;
#314=DIRECTION('Axis2P3D XDirection',(0.,1.,0.)) ;
#326=DIRECTION('Axis2P3D Direction',(1.,0.,0.)) ;
#327=DIRECTION('Axis2P3D XDirection',(0.,-1.,0.)) ;
#343=DIRECTION('Axis2P3D Direction',(0.,0.,1.)) ;
#344=DIRECTION('Axis2P3D XDirection',(1.,0.,0.)) ;
#348=DIRECTION('Vector Direction',(-1.,0.,0.)) ;
#357=DIRECTION('Axis2P3D Direction',(0.,0.,1.)) ;
#364=DIRECTION('Axis2P3D Direction',(0.,0.,1.)) ;
#371=DIRECTION('Vector Direction',(-1.,0.,0.)) ;
#378=DIRECTION('Axis2P3D Direction',(0.,0.,1.)) ;
#385=DIRECTION('Axis2P3D Direction',(0.,0.,1.)) ;
#399=DIRECTION('Axis2P3D Direction',(0.,0.,1.)) ;
#400=DIRECTION('Axis2P3D XDirection',(1.,0.,0.)) ;
#404=DIRECTION('Vector Direction',(0.,0.,1.)) ;
#411=DIRECTION('Axis2P3D Direction',(0.,0.,1.)) ;
#418=DIRECTION('Vector Direction',(0.,0.,1.)) ;
#430=DIRECTION('Axis2P3D Direction',(0.,0.,1.)) ;
#437=DIRECTION('Vector Direction',(0.,0.,1.)) ;
#449=DIRECTION('Axis2P3D Direction',(0.,0.,1.)) ;
#450=DIRECTION('Axis2P3D XDirection',(1.,0.,0.)) ;
#454=DIRECTION('Vector Direction',(0.,0.,1.)) ;
#461=DIRECTION('Vector Direction',(0.,0.,1.)) ;
#468=DIRECTION('Axis2P3D Direction',(0.,0.,1.)) ;
#480=DIRECTION('Vector Direction',(0.,0.,1.)) ;
#487=DIRECTION('Axis2P3D Direction',(0.,0.,1.)) ;
#499=DIRECTION('Axis2P3D Direction',(0.,0.,1.)) ;
#500=DIRECTION('Axis2P3D XDirection',(1.,0.,0.)) ;
#504=DIRECTION('Vector Direction',(-1.,0.,0.)) ;
#509=DIRECTION('Vector Direction',(-1.,0.,0.)) ;
#523=DIRECTION('Axis2P3D Direction',(0.,1.,0.)) ;
#524=DIRECTION('Axis2P3D XDirection',(0.,0.,-1.)) ;
#535=DIRECTION('Axis2P3D Direction',(0.,-1.,0.)) ;
#536=DIRECTION('Axis2P3D XDirection',(0.,0.,1.)) ;
#48=AXIS2_PLACEMENT_3D(' ',#47,$,$) ;
#55=AXIS2_PLACEMENT_3D('Cylinder Axis2P3D',#52,#53,#54) ;
#68=AXIS2_PLACEMENT_3D('Circle Axis2P3D',#66,#67,$) ;
#82=AXIS2_PLACEMENT_3D('Circle Axis2P3D',#80,#81,$) ;
#94=AXIS2_PLACEMENT_3D('Circle Axis2P3D',#92,#93,$) ;
#99=AXIS2_PLACEMENT_3D('Circle Axis2P3D',#97,#98,$) ;
#112=AXIS2_PLACEMENT_3D('Plane Axis2P3D',#109,#110,#111) ;
#116=AXIS2_PLACEMENT_3D('Circle Axis2P3D',#114,#115,$) ;
#125=AXIS2_PLACEMENT_3D('Circle Axis2P3D',#123,#124,$) ;
#140=AXIS2_PLACEMENT_3D('Cone Axis2P3D',#137,#138,#139) ;
#178=AXIS2_PLACEMENT_3D('Circle Axis2P3D',#176,#177,$) ;
#193=AXIS2_PLACEMENT_3D('Cone Axis2P3D',#190,#191,#192) ;
#217=AXIS2_PLACEMENT_3D('Circle Axis2P3D',#215,#216,$) ;
#232=AXIS2_PLACEMENT_3D('Cylinder Axis2P3D',#229,#230,#231) ;
#250=AXIS2_PLACEMENT_3D('Circle Axis2P3D',#248,#249,$) ;
#276=AXIS2_PLACEMENT_3D('Circle Axis2P3D',#274,#275,$) ;
#289=AXIS2_PLACEMENT_3D('Plane Axis2P3D',#286,#287,#288) ;
#315=AXIS2_PLACEMENT_3D('Plane Axis2P3D',#312,#313,#314) ;
#328=AXIS2_PLACEMENT_3D('Plane Axis2P3D',#325,#326,#327) ;
#345=AXIS2_PLACEMENT_3D('Plane Axis2P3D',#342,#343,#344) ;
#358=AXIS2_PLACEMENT_3D('Circle Axis2P3D',#356,#357,$) ;
#365=AXIS2_PLACEMENT_3D('Circle Axis2P3D',#363,#364,$) ;
#379=AXIS2_PLACEMENT_3D('Circle Axis2P3D',#377,#378,$) ;
#386=AXIS2_PLACEMENT_3D('Circle Axis2P3D',#384,#385,$) ;
#401=AXIS2_PLACEMENT_3D('Cylinder Axis2P3D',#398,#399,#400) ;
#412=AXIS2_PLACEMENT_3D('Circle Axis2P3D',#410,#411,$) ;
#431=AXIS2_PLACEMENT_3D('Circle Axis2P3D',#429,#430,$) ;
#451=AXIS2_PLACEMENT_3D('Cylinder Axis2P3D',#448,#449,#450) ;
#469=AXIS2_PLACEMENT_3D('Circle Axis2P3D',#467,#468,$) ;
#488=AXIS2_PLACEMENT_3D('Circle Axis2P3D',#486,#487,$) ;
#501=AXIS2_PLACEMENT_3D('Plane Axis2P3D',#498,#499,#500) ;
#525=AXIS2_PLACEMENT_3D('Plane Axis2P3D',#522,#523,#524) ;
#537=AXIS2_PLACEMENT_3D('Plane Axis2P3D',#534,#535,#536) ;
#40=PRODUCT_DEFINITION_SHAPE(' ',' ',#14) ;
#31=APPROVAL_PERSON_ORGANIZATION(#25,#21,#19) ;
#25=PERSON_AND_ORGANIZATION(#22,#23) ;
#22=PERSON(' ',' ',' ',$,$,$) ;
#23=ORGANIZATION(' ',' ',' ') ;
#21=APPROVAL(#20,' ') ;
#20=APPROVAL_STATUS('not_yet_approved') ;
#19=APPROVAL_ROLE('APPROVER') ;
#13=DATE_AND_TIME(#11,#12) ;
#12=LOCAL_TIME(11,0,15.,#10) ;
#10=COORDINATED_UNIVERSAL_TIME_OFFSET(0,0,.AHEAD.) ;
#86=ORIENTED_EDGE('',*,*,#65,.F.) ;
#87=ORIENTED_EDGE('',*,*,#72,.T.) ;
#88=ORIENTED_EDGE('',*,*,#79,.T.) ;
#89=ORIENTED_EDGE('',*,*,#84,.F.) ;
#103=ORIENTED_EDGE('',*,*,#79,.F.) ;
#104=ORIENTED_EDGE('',*,*,#96,.T.) ;
#105=ORIENTED_EDGE('',*,*,#65,.T.) ;
#106=ORIENTED_EDGE('',*,*,#101,.F.) ;
#129=ORIENTED_EDGE('',*,*,#122,.T.) ;
#130=ORIENTED_EDGE('',*,*,#127,.T.) ;
#133=ORIENTED_EDGE('',*,*,#72,.F.) ;
#134=ORIENTED_EDGE('',*,*,#96,.F.) ;
#182=ORIENTED_EDGE('',*,*,#153,.F.) ;
#183=ORIENTED_EDGE('',*,*,#158,.F.) ;
#184=ORIENTED_EDGE('',*,*,#127,.F.) ;
#185=ORIENTED_EDGE('',*,*,#165,.T.) ;
#186=ORIENTED_EDGE('',*,*,#175,.T.) ;
#187=ORIENTED_EDGE('',*,*,#180,.T.) ;
#221=ORIENTED_EDGE('',*,*,#204,.F.) ;
#222=ORIENTED_EDGE('',*,*,#165,.F.) ;
#223=ORIENTED_EDGE('',*,*,#122,.F.) ;
#224=ORIENTED_EDGE('',*,*,#158,.T.) ;
#225=ORIENTED_EDGE('',*,*,#214,.T.) ;
#226=ORIENTED_EDGE('',*,*,#219,.T.) ;
#254=ORIENTED_EDGE('',*,*,#240,.T.) ;
#255=ORIENTED_EDGE('',*,*,#180,.F.) ;
#256=ORIENTED_EDGE('',*,*,#247,.F.) ;
#257=ORIENTED_EDGE('',*,*,#252,.T.) ;
#280=ORIENTED_EDGE('',*,*,#266,.T.) ;
#281=ORIENTED_EDGE('',*,*,#219,.F.) ;
#282=ORIENTED_EDGE('',*,*,#273,.F.) ;
#283=ORIENTED_EDGE('',*,*,#278,.T.) ;
#302=ORIENTED_EDGE('',*,*,#278,.F.) ;
#303=ORIENTED_EDGE('',*,*,#295,.T.) ;
#304=ORIENTED_EDGE('',*,*,#252,.F.) ;
#305=ORIENTED_EDGE('',*,*,#300,.T.) ;
#308=ORIENTED_EDGE('',*,*,#101,.T.) ;
#309=ORIENTED_EDGE('',*,*,#84,.T.) ;
#318=ORIENTED_EDGE('',*,*,#300,.F.) ;
#319=ORIENTED_EDGE('',*,*,#247,.T.) ;
#320=ORIENTED_EDGE('',*,*,#175,.F.) ;
#321=ORIENTED_EDGE('',*,*,#204,.T.) ;
#322=ORIENTED_EDGE('',*,*,#266,.F.) ;
#331=ORIENTED_EDGE('',*,*,#295,.F.) ;
#332=ORIENTED_EDGE('',*,*,#273,.T.) ;
#333=ORIENTED_EDGE('',*,*,#214,.F.) ;
#334=ORIENTED_EDGE('',*,*,#153,.T.) ;
#335=ORIENTED_EDGE('',*,*,#240,.F.) ;
#390=ORIENTED_EDGE('',*,*,#355,.T.) ;
#391=ORIENTED_EDGE('',*,*,#362,.T.) ;
#392=ORIENTED_EDGE('',*,*,#369,.T.) ;
#393=ORIENTED_EDGE('',*,*,#376,.F.) ;
#394=ORIENTED_EDGE('',*,*,#383,.F.) ;
#395=ORIENTED_EDGE('',*,*,#388,.F.) ;
#423=ORIENTED_EDGE('',*,*,#388,.T.) ;
#424=ORIENTED_EDGE('',*,*,#409,.F.) ;
#425=ORIENTED_EDGE('',*,*,#416,.F.) ;
#426=ORIENTED_EDGE('',*,*,#421,.F.) ;
#442=ORIENTED_EDGE('',*,*,#435,.F.) ;
#443=ORIENTED_EDGE('',*,*,#409,.T.) ;
#444=ORIENTED_EDGE('',*,*,#383,.T.) ;
#445=ORIENTED_EDGE('',*,*,#440,.T.) ;
#473=ORIENTED_EDGE('',*,*,#459,.F.) ;
#474=ORIENTED_EDGE('',*,*,#369,.F.) ;
#475=ORIENTED_EDGE('',*,*,#466,.F.) ;
#476=ORIENTED_EDGE('',*,*,#471,.T.) ;
#492=ORIENTED_EDGE('',*,*,#485,.T.) ;
#493=ORIENTED_EDGE('',*,*,#490,.T.) ;
#494=ORIENTED_EDGE('',*,*,#466,.T.) ;
#495=ORIENTED_EDGE('',*,*,#362,.F.) ;
#514=ORIENTED_EDGE('',*,*,#416,.T.) ;
#515=ORIENTED_EDGE('',*,*,#435,.T.) ;
#516=ORIENTED_EDGE('',*,*,#507,.T.) ;
#517=ORIENTED_EDGE('',*,*,#471,.F.) ;
#518=ORIENTED_EDGE('',*,*,#490,.F.) ;
#519=ORIENTED_EDGE('',*,*,#512,.F.) ;
#528=ORIENTED_EDGE('',*,*,#507,.F.) ;
#529=ORIENTED_EDGE('',*,*,#440,.F.) ;
#530=ORIENTED_EDGE('',*,*,#376,.T.) ;
#531=ORIENTED_EDGE('',*,*,#459,.T.) ;
#540=ORIENTED_EDGE('',*,*,#485,.F.) ;
#541=ORIENTED_EDGE('',*,*,#355,.F.) ;
#542=ORIENTED_EDGE('',*,*,#421,.T.) ;
#543=ORIENTED_EDGE('',*,*,#512,.T.) ;
#135=FACE_BOUND('',#132,.T.) ;
#310=FACE_BOUND('',#307,.T.) ;
#51=CLOSED_SHELL('Closed Shell',(#91,#108,#136,#189,#228,#259,#285,#311,#324,#337)) ;
#341=CLOSED_SHELL('Closed Shell',(#397,#428,#447,#478,#497,#521,#533,#545)) ;
#59=VECTOR('Line Direction',#58,1.) ;
#75=VECTOR('Line Direction',#74,1.) ;
#156=VECTOR('Line Direction',#155,1.) ;
#161=VECTOR('Line Direction',#160,1.) ;
#236=VECTOR('Line Direction',#235,1.) ;
#243=VECTOR('Line Direction',#242,1.) ;
#262=VECTOR('Line Direction',#261,1.) ;
#269=VECTOR('Line Direction',#268,1.) ;
#293=VECTOR('Line Direction',#292,1.) ;
#298=VECTOR('Line Direction',#297,1.) ;
#349=VECTOR('Line Direction',#348,1.) ;
#372=VECTOR('Line Direction',#371,1.) ;
#405=VECTOR('Line Direction',#404,1.) ;
#419=VECTOR('Line Direction',#418,1.) ;
#438=VECTOR('Line Direction',#437,1.) ;
#455=VECTOR('Line Direction',#454,1.) ;
#462=VECTOR('Line Direction',#461,1.) ;
#481=VECTOR('Line Direction',#480,1.) ;
#505=VECTOR('Line Direction',#504,1.) ;
#510=VECTOR('Line Direction',#509,1.) ;
#339=ADVANCED_BREP_SHAPE_REPRESENTATION('NONE',(#338,#546),#46) ;
#49=SHAPE_REPRESENTATION(' ',(#48),#46) ;
#91=ADVANCED_FACE('\X2\96F64EF651E04F554F53\X0\',(#90),#56,.F.) ;
#108=ADVANCED_FACE('\X2\96F64EF651E04F554F53\X0\',(#107),#56,.F.) ;
#136=ADVANCED_FACE('\X2\96F64EF651E04F554F53\X0\',(#131,#135),#113,.T.) ;
#189=ADVANCED_FACE('\X2\96F64EF651E04F554F53\X0\',(#188),#141,.T.) ;
#228=ADVANCED_FACE('\X2\96F64EF651E04F554F53\X0\',(#227),#194,.T.) ;
#259=ADVANCED_FACE('\X2\96F64EF651E04F554F53\X0\',(#258),#233,.T.) ;
#285=ADVANCED_FACE('\X2\96F64EF651E04F554F53\X0\',(#284),#233,.T.) ;
#311=ADVANCED_FACE('\X2\96F64EF651E04F554F53\X0\',(#306,#310),#290,.F.) ;
#324=ADVANCED_FACE('\X2\96F64EF651E04F554F53\X0\',(#323),#316,.T.) ;
#337=ADVANCED_FACE('\X2\96F64EF651E04F554F53\X0\',(#336),#329,.T.) ;
#397=ADVANCED_FACE('\X2\51E04F554F53\X0\.2',(#396),#346,.F.) ;
#428=ADVANCED_FACE('\X2\51E04F554F53\X0\.2',(#427),#402,.T.) ;
#447=ADVANCED_FACE('\X2\51E04F554F53\X0\.2',(#446),#402,.T.) ;
#478=ADVANCED_FACE('\X2\51E04F554F53\X0\.2',(#477),#452,.F.) ;
#497=ADVANCED_FACE('\X2\51E04F554F53\X0\.2',(#496),#452,.F.) ;
#521=ADVANCED_FACE('\X2\51E04F554F53\X0\.2',(#520),#502,.T.) ;
#533=ADVANCED_FACE('\X2\51E04F554F53\X0\.2',(#532),#526,.T.) ;
#545=ADVANCED_FACE('\X2\51E04F554F53\X0\.2',(#544),#538,.T.) ;
#4=APPLICATION_PROTOCOL_DEFINITION('international standard','config_control_design',1994,#1) ;
#32=APPROVAL_DATE_TIME(#13,#21) ;
#142=B_SPLINE_CURVE_WITH_KNOTS('',5,(#143,#144,#145,#146,#147,#148),.UNSPECIFIED.,.F.,.U.,(6,6),(0.,75.8466838027),.UNSPECIFIED.) ;
#166=B_SPLINE_CURVE_WITH_KNOTS('',5,(#167,#168,#169,#170,#171,#172),.UNSPECIFIED.,.F.,.U.,(6,6),(0.,75.8466837858),.UNSPECIFIED.) ;
#195=B_SPLINE_CURVE_WITH_KNOTS('',5,(#196,#197,#198,#199,#200,#201),.UNSPECIFIED.,.F.,.U.,(6,6),(0.,75.8466837978),.UNSPECIFIED.) ;
#205=B_SPLINE_CURVE_WITH_KNOTS('',5,(#206,#207,#208,#209,#210,#211),.UNSPECIFIED.,.F.,.U.,(6,6),(0.,75.8466837948),.UNSPECIFIED.) ;
#338=MANIFOLD_SOLID_BREP('\X2\96F64EF651E04F554F53\X0\',#51) ;
#546=MANIFOLD_SOLID_BREP('\X2\51E04F554F53\X0\.2',#341) ;
#11=CALENDAR_DATE(2018,2,8) ;
#30=CC_DESIGN_APPROVAL(#21,(#16,#6,#14)) ;
#18=CC_DESIGN_DATE_AND_TIME_ASSIGNMENT(#13,#17,(#16)) ;
#29=CC_DESIGN_DATE_AND_TIME_ASSIGNMENT(#13,#28,(#14)) ;
#17=DATE_TIME_ROLE('classification_date') ;
#28=DATE_TIME_ROLE('creation_date') ;
#27=CC_DESIGN_PERSON_AND_ORGANIZATION_ASSIGNMENT(#25,#26,(#16)) ;
#33=CC_DESIGN_PERSON_AND_ORGANIZATION_ASSIGNMENT(#25,#34,(#6)) ;
#35=CC_DESIGN_PERSON_AND_ORGANIZATION_ASSIGNMENT(#25,#36,(#6,#14)) ;
#37=CC_DESIGN_PERSON_AND_ORGANIZATION_ASSIGNMENT(#25,#38,(#5)) ;
#26=PERSON_AND_ORGANIZATION_ROLE('classification_officer') ;
#34=PERSON_AND_ORGANIZATION_ROLE('design_supplier') ;
#36=PERSON_AND_ORGANIZATION_ROLE('creator') ;
#38=PERSON_AND_ORGANIZATION_ROLE('design_owner') ;
#39=CC_DESIGN_SECURITY_CLASSIFICATION(#16,(#6)) ;
#69=CIRCLE('generated circle',#68,2.25) ;
#83=CIRCLE('generated circle',#82,2.25) ;
#95=CIRCLE('generated circle',#94,2.25) ;
#100=CIRCLE('generated circle',#99,2.25) ;
#117=CIRCLE('generated circle',#116,3.5) ;
#126=CIRCLE('generated circle',#125,3.5) ;
#179=CIRCLE('generated circle',#178,5.5) ;
#218=CIRCLE('generated circle',#217,5.5) ;
#251=CIRCLE('generated circle',#250,5.5) ;
#277=CIRCLE('generated circle',#276,5.5) ;
#359=CIRCLE('generated circle',#358,2.) ;
#366=CIRCLE('generated circle',#365,2.) ;
#380=CIRCLE('generated circle',#379,2.25) ;
#387=CIRCLE('generated circle',#386,2.25) ;
#413=CIRCLE('generated circle',#412,2.25) ;
#432=CIRCLE('generated circle',#431,2.25) ;
#470=CIRCLE('generated circle',#469,2.) ;
#489=CIRCLE('generated circle',#488,2.) ;
#141=CONICAL_SURFACE('Cone',#140,0.,0.785398163397) ;
#194=CONICAL_SURFACE('Cone',#193,0.,0.785398163397) ;
#340=SHAPE_REPRESENTATION_RELATIONSHIP(' ',' ',#49,#339) ;
#56=CYLINDRICAL_SURFACE('generated cylinder',#55,2.25) ;
#233=CYLINDRICAL_SURFACE('generated cylinder',#232,5.5) ;
#402=CYLINDRICAL_SURFACE('generated cylinder',#401,2.25) ;
#452=CYLINDRICAL_SURFACE('generated cylinder',#451,2.) ;
#3=DESIGN_CONTEXT(' ',#1,'design') ;
#65=EDGE_CURVE('',#62,#64,#60,.F.) ;
#72=EDGE_CURVE('',#62,#71,#69,.T.) ;
#79=EDGE_CURVE('',#71,#78,#76,.F.) ;
#84=EDGE_CURVE('',#64,#78,#83,.T.) ;
#96=EDGE_CURVE('',#71,#62,#95,.T.) ;
#101=EDGE_CURVE('',#78,#64,#100,.T.) ;
#122=EDGE_CURVE('',#119,#121,#117,.T.) ;
#127=EDGE_CURVE('',#121,#119,#126,.T.) ;
#153=EDGE_CURVE('',#150,#152,#142,.T.) ;
#158=EDGE_CURVE('',#119,#150,#157,.T.) ;
#165=EDGE_CURVE('',#121,#164,#162,.T.) ;
#175=EDGE_CURVE('',#164,#174,#166,.T.) ;
#180=EDGE_CURVE('',#174,#152,#179,.T.) ;
#204=EDGE_CURVE('',#164,#203,#195,.T.) ;
#214=EDGE_CURVE('',#150,#213,#205,.T.) ;
#219=EDGE_CURVE('',#213,#203,#218,.T.) ;
#240=EDGE_CURVE('',#239,#152,#237,.T.) ;
#247=EDGE_CURVE('',#246,#174,#244,.T.) ;
#252=EDGE_CURVE('',#246,#239,#251,.T.) ;
#266=EDGE_CURVE('',#265,#203,#263,.T.) ;
#273=EDGE_CURVE('',#272,#213,#270,.T.) ;
#278=EDGE_CURVE('',#272,#265,#277,.T.) ;
#295=EDGE_CURVE('',#272,#239,#294,.T.) ;
#300=EDGE_CURVE('',#246,#265,#299,.T.) ;
#355=EDGE_CURVE('',#352,#354,#350,.T.) ;
#362=EDGE_CURVE('',#354,#361,#359,.T.) ;
#369=EDGE_CURVE('',#361,#368,#366,.T.) ;
#376=EDGE_CURVE('',#375,#368,#373,.T.) ;
#383=EDGE_CURVE('',#382,#375,#380,.T.) ;
#388=EDGE_CURVE('',#352,#382,#387,.T.) ;
#409=EDGE_CURVE('',#408,#382,#406,.F.) ;
#416=EDGE_CURVE('',#415,#408,#413,.T.) ;
#421=EDGE_CURVE('',#352,#415,#420,.T.) ;
#435=EDGE_CURVE('',#408,#434,#432,.T.) ;
#440=EDGE_CURVE('',#375,#434,#439,.T.) ;
#459=EDGE_CURVE('',#368,#458,#456,.T.) ;
#466=EDGE_CURVE('',#465,#361,#463,.F.) ;
#471=EDGE_CURVE('',#465,#458,#470,.T.) ;
#485=EDGE_CURVE('',#354,#484,#482,.T.) ;
#490=EDGE_CURVE('',#484,#465,#489,.T.) ;
#507=EDGE_CURVE('',#434,#458,#506,.T.) ;
#512=EDGE_CURVE('',#415,#484,#511,.T.) ;
#85=EDGE_LOOP('',(#86,#87,#88,#89)) ;
#102=EDGE_LOOP('',(#103,#104,#105,#106)) ;
#128=EDGE_LOOP('',(#129,#130)) ;
#132=EDGE_LOOP('',(#133,#134)) ;
#181=EDGE_LOOP('',(#182,#183,#184,#185,#186,#187)) ;
#220=EDGE_LOOP('',(#221,#222,#223,#224,#225,#226)) ;
#253=EDGE_LOOP('',(#254,#255,#256,#257)) ;
#279=EDGE_LOOP('',(#280,#281,#282,#283)) ;
#301=EDGE_LOOP('',(#302,#303,#304,#305)) ;
#307=EDGE_LOOP('',(#308,#309)) ;
#317=EDGE_LOOP('',(#318,#319,#320,#321,#322)) ;
#330=EDGE_LOOP('',(#331,#332,#333,#334,#335)) ;
#389=EDGE_LOOP('',(#390,#391,#392,#393,#394,#395)) ;
#422=EDGE_LOOP('',(#423,#424,#425,#426)) ;
#441=EDGE_LOOP('',(#442,#443,#444,#445)) ;
#472=EDGE_LOOP('',(#473,#474,#475,#476)) ;
#491=EDGE_LOOP('',(#492,#493,#494,#495)) ;
#513=EDGE_LOOP('',(#514,#515,#516,#517,#518,#519)) ;
#527=EDGE_LOOP('',(#528,#529,#530,#531)) ;
#539=EDGE_LOOP('',(#540,#541,#542,#543)) ;
#90=FACE_OUTER_BOUND('',#85,.T.) ;
#107=FACE_OUTER_BOUND('',#102,.T.) ;
#131=FACE_OUTER_BOUND('',#128,.T.) ;
#188=FACE_OUTER_BOUND('',#181,.T.) ;
#227=FACE_OUTER_BOUND('',#220,.T.) ;
#258=FACE_OUTER_BOUND('',#253,.T.) ;
#284=FACE_OUTER_BOUND('',#279,.T.) ;
#306=FACE_OUTER_BOUND('',#301,.T.) ;
#323=FACE_OUTER_BOUND('',#317,.T.) ;
#336=FACE_OUTER_BOUND('',#330,.T.) ;
#396=FACE_OUTER_BOUND('',#389,.T.) ;
#427=FACE_OUTER_BOUND('',#422,.T.) ;
#446=FACE_OUTER_BOUND('',#441,.T.) ;
#477=FACE_OUTER_BOUND('',#472,.T.) ;
#496=FACE_OUTER_BOUND('',#491,.T.) ;
#520=FACE_OUTER_BOUND('',#513,.T.) ;
#532=FACE_OUTER_BOUND('',#527,.T.) ;
#544=FACE_OUTER_BOUND('',#539,.T.) ;
#45=UNCERTAINTY_MEASURE_WITH_UNIT(LENGTH_MEASURE(0.005),#41,'distance_accuracy_value','CONFUSED CURVE UNCERTAINTY') ;
#60=LINE('Line',#57,#59) ;
#76=LINE('Line',#73,#75) ;
#157=LINE('Line',#154,#156) ;
#162=LINE('Line',#159,#161) ;
#237=LINE('Line',#234,#236) ;
#244=LINE('Line',#241,#243) ;
#263=LINE('Line',#260,#262) ;
#270=LINE('Line',#267,#269) ;
#294=LINE('Line',#291,#293) ;
#299=LINE('Line',#296,#298) ;
#350=LINE('Line',#347,#349) ;
#373=LINE('Line',#370,#372) ;
#406=LINE('Line',#403,#405) ;
#420=LINE('Line',#417,#419) ;
#439=LINE('Line',#436,#438) ;
#456=LINE('Line',#453,#455) ;
#463=LINE('Line',#460,#462) ;
#482=LINE('Line',#479,#481) ;
#506=LINE('Line',#503,#505) ;
#511=LINE('Line',#508,#510) ;
#2=MECHANICAL_CONTEXT(' ',#1,'mechanical') ;
#24=PERSONAL_ADDRESS(' ',' ',' ',' ',' ',' ',' ',' ',' ',' ',' ',' ',(#22),' ') ;
#113=PLANE('',#112) ;
#290=PLANE('',#289) ;
#316=PLANE('',#315) ;
#329=PLANE('',#328) ;
#346=PLANE('',#345) ;
#502=PLANE('',#501) ;
#526=PLANE('',#525) ;
#538=PLANE('',#537) ;
#43=PLANE_ANGLE_MEASURE_WITH_UNIT(PLANE_ANGLE_MEASURE(0.0174532925199),#42) ;
#7=PRODUCT_CATEGORY('part',$) ;
#9=PRODUCT_CATEGORY_RELATIONSHIP(' ',' ',#7,#8) ;
#6=PRODUCT_DEFINITION_FORMATION_WITH_SPECIFIED_SOURCE('',' ',#5,.NOT_KNOWN.) ;
#8=PRODUCT_RELATED_PRODUCT_CATEGORY('detail',$,(#5)) ;
#50=SHAPE_DEFINITION_REPRESENTATION(#40,#49) ;
#62=VERTEX_POINT('',#61) ;
#64=VERTEX_POINT('',#63) ;
#71=VERTEX_POINT('',#70) ;
#78=VERTEX_POINT('',#77) ;
#119=VERTEX_POINT('',#118) ;
#121=VERTEX_POINT('',#120) ;
#150=VERTEX_POINT('',#149) ;
#152=VERTEX_POINT('',#151) ;
#164=VERTEX_POINT('',#163) ;
#174=VERTEX_POINT('',#173) ;
#203=VERTEX_POINT('',#202) ;
#213=VERTEX_POINT('',#212) ;
#239=VERTEX_POINT('',#238) ;
#246=VERTEX_POINT('',#245) ;
#265=VERTEX_POINT('',#264) ;
#272=VERTEX_POINT('',#271) ;
#352=VERTEX_POINT('',#351) ;
#354=VERTEX_POINT('',#353) ;
#361=VERTEX_POINT('',#360) ;
#368=VERTEX_POINT('',#367) ;
#375=VERTEX_POINT('',#374) ;
#382=VERTEX_POINT('',#381) ;
#408=VERTEX_POINT('',#407) ;
#415=VERTEX_POINT('',#414) ;
#434=VERTEX_POINT('',#433) ;
#458=VERTEX_POINT('',#457) ;
#465=VERTEX_POINT('',#464) ;
#484=VERTEX_POINT('',#483) ;
#41=(LENGTH_UNIT()NAMED_UNIT(*)SI_UNIT(.MILLI.,.METRE.)) ;
#42=(NAMED_UNIT(*)PLANE_ANGLE_UNIT()SI_UNIT($,.RADIAN.)) ;
#44=(NAMED_UNIT(*)SI_UNIT($,.STERADIAN.)SOLID_ANGLE_UNIT()) ;
#46=(GEOMETRIC_REPRESENTATION_CONTEXT(3)GLOBAL_UNCERTAINTY_ASSIGNED_CONTEXT((#45))GLOBAL_UNIT_ASSIGNED_CONTEXT((#41,#42,#44))REPRESENTATION_CONTEXT(' ',' ')) ;
ENDSEC;
END-ISO-10303-21;
